Ciudad Anime!

Ciudad Anime!

En esta Ciudad encontraras todo del mundo del anime y manga de la mano de muy buenos amigos. Continúa tu camino y recorre esta ciudad.
 
ÍndicePortalFAQBuscarMiembrosGrupos de UsuariosRegistrarseConectarse

Comparte | 
 

 Miku Hatsune -- "Yukkuri Shiteitte ne!! tema y acordes guitarra

Ver el tema anterior Ver el tema siguiente Ir abajo 
AutorMensaje
sephiroth
Sempai
Sempai
avatar

Mensajes : 407
Fecha de inscripción : 28/02/2011
Edad : 26
Localización : Buenos aires argentina

MensajeTema: Miku Hatsune -- "Yukkuri Shiteitte ne!! tema y acordes guitarra   Vie Mar 11, 2011 2:04 am

primero les dejo el tema apra q lo escuchen



aca la letra en español

Fácil, fácil, fácil, fácil.
Yo no tengo tiempo suficiente. Y yo no tengo suficiente dinero.
Así mismo, no tienen plan suficiente. La misma vieja mierda, la mierda de siempre.

No tengo suficiente ropa. Y no tengo suficiente comida.
Tampoco han dormido lo suficiente. La misma vieja mierda, la mierda de siempre

Tómelo con calma
Tómelo con calma, ¿vale?
Tómelo con calma
Fácil, Fácil ¿de acuerdo?

Tómelo con calma
Tómelo con calma, ¿vale?
Tómelo con calma
Fácil, Fácil ¿de acuerdo?

. Yo no estudio suficiente. Y yo no practican lo suficiente.
No pongo suficiente esfuerzo en él. La misma vieja mierda, la mierda de siempre.

No me interesa lo suficiente. Y yo no tengo la ambición suficiente.
Así mismo, no se concentran lo suficiente. La misma vieja mierda, la mierda de siempre

Tómelo con calma
Tómelo con calma, ¿vale?
Tómelo con calma
Fácil, Fácil ¿de acuerdo?

Tómelo con calma.
Tómelo con calma, ¿vale?
Tómelo con calma.
Fácil, fácil, ¿de acuerdo?

Tómelo con calma
Tómelo con calma, ¿vale? .
Tómelo con calma
Fácil, fácil, ¿de acuerdo?

Tómalo con calma
Tómelo con calma, ¿vale?
tómalo con calma
Fácil, fácil, ¿de acuerdo?

Tómalo con calma
Tómelo con calma, ¿vale?
tómalo con calma
Fácil, fácil, ¿de acuerdo?

Fácil, fácil, fácil, fácil.
Tómelo con calma, ¿vale?

fuente:http://www.musica.com

y ahora como tocarlo (recomiendo tocar en guitarra electrica con distorcion porq en criolla no suena muy bien)


|-----------------------------------------------------------------------------------|
|-----------------------------------------------------------------------------------|
|--7-7-7-7-7-7-7-7-7-7-7-7-7-7-7-7--5-5-5-5-5-5-5-5-5-5-5-5-5-5-5-5----|
|--7-7-7-7-7-7-7-7-7-7-7-7-7-7-7-7--5-5-5-5-5-5-5-5-5-5-5-5-5-5-5-5----|
|--5-5-5-5-5-5-5-5-5-5-5-5-5-5-5-5--3-3-3-3-3-3-3-3-3-3-3-3-3-3-3-3----|
|-----------------------------------------------------------------------------------|

|--------------------------------------------------------------------------|
|--------------------------------------------------------------------------|
|-10-10-10-10-10-10-10-10-10-10-10-10-10-10-10-10--14-14-14-14-14-14-14-14-|
|-10-10-10-10-10-10-10-10-10-10-10-10-10-10-10-10--14-14-14-14-14-14-14-14-|
|--8--8--8--8--8--8--8--8--8--8--8--8--8--8--8--8--12-12-12-12-12-12-12-12-------|
|---------------------------------------------------------------------------------------------|

|----------------------------------|
|----------------------------------|
|-14-14-14-14-14-14-14-14----|
|-14-14-14-14-14-14-14-14----|
|-12-12-12-12-12-12-12-12----|
|-----------------------------------|

Volver arriba Ir abajo
Ver perfil de usuario
Crown Clown
Admin
Admin
avatar

Mensajes : 820
Fecha de inscripción : 22/02/2011
Edad : 24
Localización : Bs.As.

MensajeTema: Re: Miku Hatsune -- "Yukkuri Shiteitte ne!! tema y acordes guitarra   Vie Mar 11, 2011 10:41 pm

genial despues veo si lo toco con la guitarra Smile

_________________CIUDAD ANIME__________________

Yo te salvare. Yo quiero llevarle salvación a tu alma.(Allen Walker)
Volver arriba Ir abajo
Ver perfil de usuario http://ciudad-anime.foroactivo.org
 
Miku Hatsune -- "Yukkuri Shiteitte ne!! tema y acordes guitarra
Ver el tema anterior Ver el tema siguiente Volver arriba 
Página 1 de 1.

Permisos de este foro:No puedes responder a temas en este foro.
Ciudad Anime! :: Musica :: Letras y Acordes-
Cambiar a: